  0
SECTION
  2
HEADER
  9
$ACADVER
  1
AC1015
  9
$ACADMAINTVER
 70
     6
  9
$DWGCODEPAGE
  3
ANSI_1254
  9
$INSBASE
 10
0.0
 20
0.0
 30
0.0
  9
$EXTMIN
 10
0.0
 20
0.0
 30
0.0
  9
$EXTMAX
 10
279.4
 20
215.9
 30
0.0
  9
$LIMMIN
 10
0.0
 20
0.0
  9
$LIMMAX
 10
279.4
 20
215.9
  9
$ORTHOMODE
 70
     0
  9
$REGENMODE
 70
     1
  9
$FILLMODE
 70
     1
  9
$QTEXTMODE
 70
     0
  9
$MIRRTEXT
 70
     1
  9
$LTSCALE
 40
1.0
  9
$ATTMODE
 70
     1
  9
$TEXTSIZE
 40
3.5
  9
$TRACEWID
 40
1.0
  9
$TEXTSTYLE
  7
Standard
  9
$CLAYER
  8
0
  9
$CELTYPE
  6
ByLayer
  9
$CECOLOR
 62
   256
  9
$CELTSCALE
 40
1.0
  9
$DISPSILH
 70
     0
  9
$DIMSCALE
 40
1.0
  9
$DIMASZ
 40
3.5
  9
$DIMEXO
 40
1.0
  9
$DIMDLI
 40
3.75
  9
$DIMRND
 40
0.0
  9
$DIMDLE
 40
0.0
  9
$DIMEXE
 40
1.0
  9
$DIMTP
 40
0.0
  9
$DIMTM
 40
0.0
  9
$DIMTXT
 40
3.5
  9
$DIMCEN
 40
2.5
  9
$DIMTSZ
 40
0.0
  9
$DIMTOL
 70
     0
  9
$DIMLIM
 70
     0
  9
$DIMTIH
 70
     1
  9
$DIMTOH
 70
     1
  9
$DIMSE1
 70
     0
  9
$DIMSE2
 70
     0
  9
$DIMTAD
 70
     1
  9
$DIMZIN
 70
     0
  9
$DIMBLK
  1

  9
$DIMASO
 70
     1
  9
$DIMSHO
 70
     1
  9
$DIMPOST
  1

  9
$DIMAPOST
  1

  9
$DIMALT
 70
     0
  9
$DIMALTD
 70
     3
  9
$DIMALTF
 40
0.0393700787
  9
$DIMLFAC
 40
1.0
  9
$DIMTOFL
 70
     1
  9
$DIMTVP
 40
0.0
  9
$DIMTIX
 70
     0
  9
$DIMSOXD
 70
     0
  9
$DIMSAH
 70
     0
  9
$DIMBLK1
  1

  9
$DIMBLK2
  1

  9
$DIMSTYLE
  2
ISO-25
  9
$DIMCLRD
 70
     0
  9
$DIMCLRE
 70
     0
  9
$DIMCLRT
 70
     0
  9
$DIMTFAC
 40
1.0
  9
$DIMGAP
 40
1.524
  9
$DIMJUST
 70
     0
  9
$DIMSD1
 70
     0
  9
$DIMSD2
 70
     0
  9
$DIMTOLJ
 70
     0
  9
$DIMTZIN
 70
     0
  9
$DIMALTZ
 70
     0
  9
$DIMALTTZ
 70
     0
  9
$DIMUPT
 70
     0
  9
$DIMDEC
 70
     2
  9
$DIMTDEC
 70
     2
  9
$DIMALTU
 70
     2
  9
$DIMALTTD
 70
     3
  9
$DIMTXSTY
  7
Standard
  9
$DIMAUNIT
 70
     0
  9
$DIMADEC
 70
     2
  9
$DIMALTRND
 40
0.0
  9
$DIMAZIN
 70
     0
  9
$DIMDSEP
 70
    44
  9
$DIMATFIT
 70
     3
  9
$DIMFRAC
 70
     0
  9
$DIMLDRBLK
  1

  9
$DIMLUNIT
 70
     2
  9
$DIMLWD
 70
    -2
  9
$DIMLWE
 70
    -2
  9
$DIMTMOVE
 70
     0
  9
$LUNITS
 70
     2
  9
$LUPREC
 70
     2
  9
$SKETCHINC
 40
1.0
  9
$FILLETRAD
 40
10.0
  9
$AUNITS
 70
     0
  9
$AUPREC
 70
     2
  9
$MENU
  1
.
  9
$ELEVATION
 40
0.0
  9
$PELEVATION
 40
0.0
  9
$THICKNESS
 40
0.0
  9
$LIMCHECK
 70
     0
  9
$CHAMFERA
 40
0.0
  9
$CHAMFERB
 40
0.0
  9
$CHAMFERC
 40
0.0
  9
$CHAMFERD
 40
0.0
  9
$SKPOLY
 70
     0
  9
$TDCREATE
 40
2458985.682042905
  9
$TDUCREATE
 40
2458985.557042905
  9
$TDUPDATE
 40
2458985.682043171
  9
$TDUUPDATE
 40
2458985.557043171
  9
$TDINDWG
 40
0.0000000116
  9
$TDUSRTIMER
 40
0.0000000116
  9
$USRTIMER
 70
     1
  9
$ANGBASE
 50
0.0
  9
$ANGDIR
 70
     0
  9
$PDMODE
 70
     0
  9
$PDSIZE
 40
-1.0
  9
$PLINEWID
 40
0.0
  9
$SPLFRAME
 70
     0
  9
$SPLINETYPE
 70
     6
  9
$SPLINESEGS
 70
     8
  9
$HANDSEED
  5
CB
  9
$SURFTAB1
 70
     6
  9
$SURFTAB2
 70
     6
  9
$SURFTYPE
 70
     6
  9
$SURFU
 70
     6
  9
$SURFV
 70
     6
  9
$UCSBASE
  2

  9
$UCSNAME
  2

  9
$UCSORG
 10
0.0
 20
0.0
 30
0.0
  9
$UCSXDIR
 10
1.0
 20
0.0
 30
0.0
  9
$UCSYDIR
 10
0.0
 20
1.0
 30
0.0
  9
$UCSORTHOREF
  2

  9
$UCSORTHOVIEW
 70
     0
  9
$UCSORGTOP
 10
0.0
 20
0.0
 30
0.0
  9
$UCSORGBOTTOM
 10
0.0
 20
0.0
 30
0.0
  9
$UCSORGLEFT
 10
0.0
 20
0.0
 30
0.0
  9
$UCSORGRIGHT
 10
0.0
 20
0.0
 30
0.0
  9
$UCSORGFRONT
 10
0.0
 20
0.0
 30
0.0
  9
$UCSORGBACK
 10
0.0
 20
0.0
 30
0.0
  9
$PUCSBASE
  2

  9
$PUCSNAME
  2

  9
$PUCSORG
 10
0.0
 20
0.0
 30
0.0
  9
$PUCSXDIR
 10
1.0
 20
0.0
 30
0.0
  9
$PUCSYDIR
 10
0.0
 20
1.0
 30
0.0
  9
$PUCSORTHOREF
  2

  9
$PUCSORTHOVIEW
 70
     0
  9
$PUCSORGTOP
 10
0.0
 20
0.0
 30
0.0
  9
$PUCSORGBOTTOM
 10
0.0
 20
0.0
 30
0.0
  9
$PUCSORGLEFT
 10
0.0
 20
0.0
 30
0.0
  9
$PUCSORGRIGHT
 10
0.0
 20
0.0
 30
0.0
  9
$PUCSORGFRONT
 10
0.0
 20
0.0
 30
0.0
  9
$PUCSORGBACK
 10
0.0
 20
0.0
 30
0.0
  9
$USERI1
 70
     0
  9
$USERI2
 70
     0
  9
$USERI3
 70
     0
  9
$USERI4
 70
     0
  9
$USERI5
 70
     0
  9
$USERR1
 40
0.0
  9
$USERR2
 40
0.0
  9
$USERR3
 40
0.0
  9
$USERR4
 40
0.0
  9
$USERR5
 40
0.0
  9
$WORLDVIEW
 70
     1
  9
$SHADEDGE
 70
     3
  9
$SHADEDIF
 70
    70
  9
$TILEMODE
 70
     1
  9
$MAXACTVP
 70
    64
  9
$PINSBASE
 10
0.0
 20
0.0
 30
0.0
  9
$PLIMCHECK
 70
     0
  9
$PEXTMIN
 10
1.0000000000E+20
 20
1.0000000000E+20
 30
1.0000000000E+20
  9
$PEXTMAX
 10
-1.0000000000E+20
 20
-1.0000000000E+20
 30
-1.0000000000E+20
  9
$PLIMMIN
 10
0.0
 20
0.0
  9
$PLIMMAX
 10
420.0
 20
297.0
  9
$UNITMODE
 70
     0
  9
$VISRETAIN
 70
     1
  9
$PLINEGEN
 70
     0
  9
$PSLTSCALE
 70
     1
  9
$TREEDEPTH
 70
  3020
  9
$CMLSTYLE
  2
Standard
  9
$CMLJUST
 70
     0
  9
$CMLSCALE
 40
20.0
  9
$PROXYGRAPHICS
 70
     1
  9
$MEASUREMENT
 70
     1
  9
$CELWEIGHT
370
    -1
  9
$ENDCAPS
280
     0
  9
$JOINSTYLE
280
     0
  9
$LWDISPLAY
290
     1
  9
$INSUNITS
 70
     4
  9
$HYPERLINKBASE
  1

  9
$STYLESHEET
  1

  9
$XEDIT
290
     1
  9
$CEPSNTYPE
380
     0
  9
$PSTYLEMODE
290
     1
  9
$FINGERPRINTGUID
  2
{cfe47559-29e8-4491-92e0-45b56ec43b82}
  9
$VERSIONGUID
  2
{FAEB1C32-E019-11D5-929B-00C0DF256EC4}
  9
$EXTNAMES
290
     1
  9
$PSVPSCALE
 40
0.0
  9
$OLESTARTUP
290
     0
  0
ENDSEC
  0
SECTION
  2
CLASSES
  0
CLASS
  1
ACDBDICTIONARYWDFLT
  2
AcDbDictionaryWithDefault
  3
ObjectDBX Classes
 90
        0
280
     0
281
     0
  0
CLASS
  1
VISUALSTYLE
  2
AcDbVisualStyle
  3
ObjectDBX Classes
 90
     4095
280
     0
281
     0
  0
CLASS
  1
MATERIAL
  2
AcDbMaterial
  3
ObjectDBX Classes
 90
     1153
280
     0
281
     0
  0
CLASS
  1
SCALE
  2
AcDbScale
  3
ObjectDBX Classes
 90
     1153
280
     0
281
     0
  0
CLASS
  1
TABLESTYLE
  2
AcDbTableStyle
  3
ObjectDBX Classes
 90
     4095
280
     0
281
     0
  0
CLASS
  1
MLEADERSTYLE
  2
AcDbMLeaderStyle
  3
ACDB_MLEADERSTYLE_CLASS
 90
     4095
280
     0
281
     0
  0
CLASS
  1
SUN
  2
AcDbSun
  3
SCENEOE
 90
     1153
280
     0
281
     0
  0
CLASS
  1
ACDBPLACEHOLDER
  2
AcDbPlaceHolder
  3
ObjectDBX Classes
 90
        0
280
     0
281
     0
  0
CLASS
  1
LAYOUT
  2
AcDbLayout
  3
ObjectDBX Classes
 90
        0
280
     0
281
     0
  0
ENDSEC
  0
SECTION
  2
TABLES
  0
TABLE
  2
VPORT
  5
8
330
0
100
AcDbSymbolTable
 70
     1
  0
VPORT
  5
29
330
8
100
AcDbSymbolTableRecord
100
AcDbViewportTableRecord
  2
*Active
 70
     0
 10
0.0
 20
0.0
 11
1.0
 21
1.0
 12
139.7
 22
107.95
 13
0.0
 23
0.0
 14
10.0
 24
10.0
 15
10.0
 25
10.0
 16
0.0
 26
0.0
 36
1.0
 17
0.0
 27
0.0
 37
0.0
 40
215.9
 41
1.2941176471
 42
50.0
 43
0.0
 44
0.0
 50
0.0
 51
0.0
 71
     0
 72
  2000
 73
     1
 74
     3
 75
     0
 76
     0
 77
     0
 78
     0
281
     0
 65
     1
110
0.0
120
0.0
130
0.0
111
1.0
121
0.0
131
0.0
112
0.0
122
1.0
132
0.0
 79
     0
146
0.0
  0
ENDTAB
  0
TABLE
  2
LTYPE
  5
5
330
0
100
AcDbSymbolTable
 70
     6
  0
LTYPE
  5
14
330
5
100
AcDbSymbolTableRecord
100
AcDbLinetypeTableRecord
  2
ByBlock
 70
     0
  3

 72
    65
 73
     0
 40
0.0
  0
LTYPE
  5
15
330
5
100
AcDbSymbolTableRecord
100
AcDbLinetypeTableRecord
  2
ByLayer
 70
     0
  3

 72
    65
 73
     0
 40
0.0
  0
LTYPE
  5
16
330
5
100
AcDbSymbolTableRecord
100
AcDbLinetypeTableRecord
  2
Continuous
 70
     0
  3
Solid line
 72
    65
 73
     0
 40
0.0
  0
LTYPE
  5
6E
330
5
100
AcDbSymbolTableRecord
100
AcDbLinetypeTableRecord
  2
HIDDEN
 70
     0
  3
Hidden __ __ __ __ __ __ __ __ __ __ __ __ __ __
 72
    65
 73
     2
 40
1.905
 49
1.27
 74
     0
 49
-0.635
 74
     0
  0
LTYPE
  5
6F
330
5
100
AcDbSymbolTableRecord
100
AcDbLinetypeTableRecord
  2
PHANTOM
 70
     0
  3
Phantom ______  __  __  ______  __  __  ______
 72
    65
 73
     6
 40
12.7
 49
6.35
 74
     0
 49
-1.27
 74
     0
 49
1.27
 74
     0
 49
-1.27
 74
     0
 49
1.27
 74
     0
 49
-1.27
 74
     0
  0
LTYPE
  5
70
330
5
100
AcDbSymbolTableRecord
100
AcDbLinetypeTableRecord
  2
CENTER
 70
     0
  3
Center ____ _ ____ _ ____ _ ____ _ ____ _ ____
 72
    65
 73
     4
 40
10.16
 49
6.35
 74
     0
 49
-1.27
 74
     0
 49
1.27
 74
     0
 49
-1.27
 74
     0
  0
LTYPE
  5
71
330
5
100
AcDbSymbolTableRecord
100
AcDbLinetypeTableRecord
  2
CENTERX2
 70
     0
  3
Center (2x) ________  __  ________  __  _____
 72
    65
 73
     4
 40
20.32
 49
12.7
 74
     0
 49
-2.54
 74
     0
 49
2.54
 74
     0
 49
-2.54
 74
     0
  0
LTYPE
  5
72
330
5
100
AcDbSymbolTableRecord
100
AcDbLinetypeTableRecord
  2
DOT2
 70
     0
  3
Dot (.5x) ........................................
 72
    65
 73
     2
 40
0.635
 49
0.0
 74
     0
 49
-0.635
 74
     0
  0
ENDTAB
  0
TABLE
  2
LAYER
  5
2
330
0
100
AcDbSymbolTable
 70
    17
  0
LAYER
  5
10
330
2
100
AcDbSymbolTableRecord
100
AcDbLayerTableRecord
  2
0
 70
     0
 62
     7
  6
Continuous
370
    -3
390
F
  0
LAYER
  5
73
330
2
100
AcDbSymbolTableRecord
100
AcDbLayerTableRecord
  2
FORMAT
 70
     0
 62
     7
  6
Continuous
370
    -3
390
F
  0
LAYER
  5
74
330
2
100
AcDbSymbolTableRecord
100
AcDbLayerTableRecord
  2
YARDIMCI_GEOMETRI
 70
     0
 62
    -6
  6
Continuous
290
     0
370
    -3
390
F
  0
LAYER
  5
75
330
2
100
AcDbSymbolTableRecord
100
AcDbLayerTableRecord
  2
SAYFA_CERCEVESI
 70
     0
 62
     7
  6
Continuous
370
    25
390
F
  0
LAYER
  5
76
330
2
100
AcDbSymbolTableRecord
100
AcDbLayerTableRecord
  2
ANTET
 70
     0
 62
     7
  6
Continuous
370
    -3
390
F
  0
LAYER
  5
77
330
2
100
AcDbSymbolTableRecord
100
AcDbLayerTableRecord
  2
OLCU
 70
     0
 62
   150
  6
Continuous
370
    -3
390
F
  0
LAYER
  5
78
330
2
100
AcDbSymbolTableRecord
100
AcDbLayerTableRecord
  2
METIN
 70
     0
 62
    96
  6
Continuous
370
    -3
390
F
  0
LAYER
  5
79
330
2
100
AcDbSymbolTableRecord
100
AcDbLayerTableRecord
  2
BALON
 70
     0
 62
     5
  6
Continuous
370
    -3
390
F
  0
LAYER
  5
7A
330
2
100
AcDbSymbolTableRecord
100
AcDbLayerTableRecord
  2
VURGU
 70
     0
 62
     7
  6
Continuous
370
    -3
390
F
  0
LAYER
  5
7B
330
2
100
AcDbSymbolTableRecord
100
AcDbLayerTableRecord
  2
SILIK
 70
     0
 62
     7
  6
Continuous
370
    -3
390
F
  0
LAYER
  5
7C
330
2
100
AcDbSymbolTableRecord
100
AcDbLayerTableRecord
  2
MODEL
 70
     0
 62
     7
  6
Continuous
370
    -3
390
F
  0
LAYER
  5
7D
330
2
100
AcDbSymbolTableRecord
100
AcDbLayerTableRecord
  2
DETAYLANDıRMA
 70
     0
 62
   190
  6
Continuous
370
    -3
390
F
  0
LAYER
  5
7E
330
2
100
AcDbSymbolTableRecord
100
AcDbLayerTableRecord
  2
TOLERANS
 70
     0
 62
   230
  6
Continuous
370
    -3
390
F
  0
LAYER
  5
7F
330
2
100
AcDbSymbolTableRecord
100
AcDbLayerTableRecord
  2
MERKEZ_CIZGILERI
 70
     0
 62
    30
  6
Continuous
370
    -3
390
F
  0
LAYER
  5
80
330
2
100
AcDbSymbolTableRecord
100
AcDbLayerTableRecord
  2
KESIT-DETAY_CIZGILERI
 70
     0
 62
     7
  6
Continuous
370
    -3
390
F
  0
LAYER
  5
81
330
2
100
AcDbSymbolTableRecord
100
AcDbLayerTableRecord
  2
\U+041E\U+0421\U+0415\U+0412\U+042B\U+0415
 70
     0
 62
     7
  6
Continuous
370
    -3
390
F
  0
LAYER
  5
82
330
2
100
AcDbSymbolTableRecord
100
AcDbLayerTableRecord
  2
\U+0412\U+041E\U+0414\U+042F\U+041D\U+042B\U+0415_\U+0417\U+041D\U+0410\U+041A\U+0418
 70
     0
 62
    11
  6
Continuous
370
    -3
390
F
  0
ENDTAB
  0
TABLE
  2
STYLE
  5
3
330
0
100
AcDbSymbolTable
 70
     1
  0
STYLE
  5
11
330
3
100
AcDbSymbolTableRecord
100
AcDbTextStyleTableRecord
  2
Standard
 70
     0
 40
0.0
 41
1.0
 50
0.0
 71
     0
 42
3.5
  3
txt
  4

  0
ENDTAB
  0
TABLE
  2
VIEW
  5
6
330
0
100
AcDbSymbolTable
 70
     0
  0
ENDTAB
  0
TABLE
  2
UCS
  5
7
330
0
100
AcDbSymbolTable
 70
     0
  0
ENDTAB
  0
TABLE
  2
APPID
  5
9
330
0
100
AcDbSymbolTable
 70
     1
  0
APPID
  5
12
330
9
100
AcDbSymbolTableRecord
100
AcDbRegAppTableRecord
  2
ACAD
 70
     0
  0
ENDTAB
  0
TABLE
  2
DIMSTYLE
  5
A
330
0
100
AcDbSymbolTable
 70
     1
100
AcDbDimStyleTable
  0
DIMSTYLE
105
27
330
A
100
AcDbSymbolTableRecord
100
AcDbDimStyleTableRecord
  2
ISO-25
 70
     0
 41
2.5
 42
0.625
 43
3.75
 44
1.25
 73
     0
 74
     0
 77
     1
 78
     8
140
2.5
141
2.5
143
0.0393700787
147
0.625
171
     3
172
     1
178
     0
271
     2
272
     2
274
     3
278
    44
283
     0
284
     8
340
11
  0
ENDTAB
  0
TABLE
  2
BLOCK_RECORD
  5
1
330
0
100
AcDbSymbolTable
 70
     3
  0
BLOCK_RECORD
  5
1F
330
1
100
AcDbSymbolTableRecord
100
AcDbBlockTableRecord
  2
*Model_Space
340
22
  0
BLOCK_RECORD
  5
1B
330
1
100
AcDbSymbolTableRecord
100
AcDbBlockTableRecord
  2
*Paper_Space
340
1E
  0
BLOCK_RECORD
  5
23
330
1
100
AcDbSymbolTableRecord
100
AcDbBlockTableRecord
  2
*Paper_Space0
340
26
  0
BLOCK_RECORD
  5
88
330
1
100
AcDbSymbolTableRecord
100
AcDbBlockTableRecord
  2
SW_CENTERMARKSYMBOL_0
340
0
102
{BLKREFS
331
93
102
}
  0
BLOCK_RECORD
  5
B2
330
1
100
AcDbSymbolTableRecord
100
AcDbBlockTableRecord
  2
SW_CENTERMARKSYMBOL_1
340
0
102
{BLKREFS
331
BD
102
}
  0
ENDTAB
  0
ENDSEC
  0
SECTION
  2
BLOCKS
  0
BLOCK
  5
20
330
1F
100
AcDbEntity
  8
0
100
AcDbBlockBegin
  2
*Model_Space
 70
     0
 10
0.0
 20
0.0
 30
0.0
  3
*Model_Space
  1

  0
ENDBLK
  5
21
330
1F
100
AcDbEntity
  8
0
100
AcDbBlockEnd
  0
BLOCK
  5
1C
330
1B
100
AcDbEntity
 67
     1
  8
0
100
AcDbBlockBegin
  2
*Paper_Space
 70
     0
 10
0.0
 20
0.0
 30
0.0
  3
*Paper_Space
  1

  0
ENDBLK
  5
1D
330
1B
100
AcDbEntity
 67
     1
  8
0
100
AcDbBlockEnd
  0
BLOCK
  5
24
330
23
100
AcDbEntity
  8
0
100
AcDbBlockBegin
  2
*Paper_Space0
 70
     0
 10
0.0
 20
0.0
 30
0.0
  3
*Paper_Space0
  1

  0
ENDBLK
  5
25
330
23
100
AcDbEntity
  8
0
100
AcDbBlockEnd
  0
BLOCK
  5
89
330
88
100
AcDbEntity
  8
0
100
AcDbBlockBegin
  2
SW_CENTERMARKSYMBOL_0
 70
     0
 10
0.0
 20
0.0
 30
0.0
  3
SW_CENTERMARKSYMBOL_0
  1

  0
LINE
  5
8B
330
88
100
AcDbEntity
  8
FORMAT
 62
     0
100
AcDbLine
 10
0.0
 20
0.0
 30
0.0
 11
0.0
 21
2.5
 31
0.0
  0
LINE
  5
8C
330
88
100
AcDbEntity
  8
FORMAT
 62
     0
100
AcDbLine
 10
0.0
 20
0.0
 30
0.0
 11
-2.5
 21
0.0
 31
0.0
  0
LINE
  5
8D
330
88
100
AcDbEntity
  8
FORMAT
 62
     0
100
AcDbLine
 10
0.0
 20
0.0
 30
0.0
 11
0.0
 21
-2.5
 31
0.0
  0
LINE
  5
8E
330
88
100
AcDbEntity
  8
FORMAT
 62
     0
100
AcDbLine
 10
0.0
 20
0.0
 30
0.0
 11
2.5
 21
0.0
 31
0.0
  0
LINE
  5
8F
330
88
100
AcDbEntity
  8
FORMAT
 62
     0
100
AcDbLine
 10
0.0
 20
5.0
 30
0.0
 11
0.0
 21
40.0
 31
0.0
  0
LINE
  5
90
330
88
100
AcDbEntity
  8
FORMAT
 62
     0
100
AcDbLine
 10
-5.0
 20
0.0
 30
0.0
 11
-40.0
 21
0.0
 31
0.0
  0
LINE
  5
91
330
88
100
AcDbEntity
  8
FORMAT
 62
     0
100
AcDbLine
 10
0.0
 20
-5.0
 30
0.0
 11
0.0
 21
-40.0
 31
0.0
  0
LINE
  5
92
330
88
100
AcDbEntity
  8
FORMAT
 62
     0
100
AcDbLine
 10
5.0
 20
0.0
 30
0.0
 11
40.0
 21
0.0
 31
0.0
  0
ENDBLK
  5
8A
330
88
100
AcDbEntity
  8
0
100
AcDbBlockEnd
  0
BLOCK
  5
B3
330
B2
100
AcDbEntity
  8
0
100
AcDbBlockBegin
  2
SW_CENTERMARKSYMBOL_1
 70
     0
 10
0.0
 20
0.0
 30
0.0
  3
SW_CENTERMARKSYMBOL_1
  1

  0
LINE
  5
B5
330
B2
100
AcDbEntity
  8
FORMAT
 62
     0
100
AcDbLine
 10
0.0
 20
0.0
 30
0.0
 11
0.0
 21
2.5
 31
0.0
  0
LINE
  5
B6
330
B2
100
AcDbEntity
  8
FORMAT
 62
     0
100
AcDbLine
 10
0.0
 20
0.0
 30
0.0
 11
-2.5
 21
0.0
 31
0.0
  0
LINE
  5
B7
330
B2
100
AcDbEntity
  8
FORMAT
 62
     0
100
AcDbLine
 10
0.0
 20
0.0
 30
0.0
 11
0.0
 21
-2.5
 31
0.0
  0
LINE
  5
B8
330
B2
100
AcDbEntity
  8
FORMAT
 62
     0
100
AcDbLine
 10
0.0
 20
0.0
 30
0.0
 11
2.5
 21
0.0
 31
0.0
  0
LINE
  5
B9
330
B2
100
AcDbEntity
  8
FORMAT
 62
     0
100
AcDbLine
 10
0.0
 20
5.0
 30
0.0
 11
0.0
 21
34.0
 31
0.0
  0
LINE
  5
BA
330
B2
100
AcDbEntity
  8
FORMAT
 62
     0
100
AcDbLine
 10
-5.0
 20
0.0
 30
0.0
 11
-34.0
 21
0.0
 31
0.0
  0
LINE
  5
BB
330
B2
100
AcDbEntity
  8
FORMAT
 62
     0
100
AcDbLine
 10
0.0
 20
-5.0
 30
0.0
 11
0.0
 21
-34.0
 31
0.0
  0
LINE
  5
BC
330
B2
100
AcDbEntity
  8
FORMAT
 62
     0
100
AcDbLine
 10
5.0
 20
0.0
 30
0.0
 11
34.0
 21
0.0
 31
0.0
  0
ENDBLK
  5
B4
330
B2
100
AcDbEntity
  8
0
100
AcDbBlockEnd
  0
ENDSEC
  0
SECTION
  2
ENTITIES
  0
LINE
  5
83
330
1F
100
AcDbEntity
  8
0
  6
Continuous
 62
     7
370
    25
100
AcDbLine
 10
138.9001718169
 20
83.5029005303
 30
0.0
 11
239.5275510204
 21
83.5029005303
 31
0.0
  0
LINE
  5
84
330
1F
100
AcDbEntity
  8
0
  6
Continuous
 62
     7
370
    25
100
AcDbLine
 10
239.5275510204
 20
146.5029005303
 30
0.0
 11
138.9243122482
 21
146.5029005303
 31
0.0
  0
CIRCLE
  5
85
330
1F
100
AcDbEntity
  8
0
  6
Continuous
 62
     7
370
    25
100
AcDbCircle
 10
118.5275510204
 20
115.0029005303
 30
0.0
 40
30.7
  0
CIRCLE
  5
86
330
1F
100
AcDbEntity
  8
0
  6
Continuous
 62
     7
370
    25
100
AcDbCircle
 10
118.5275510204
 20
115.0029005303
 30
0.0
 40
37.50000000000001
  0
LINE
  5
87
330
1F
100
AcDbEntity
  8
0
  6
Continuous
 62
     7
370
    25
100
AcDbLine
 10
239.5275510204
 20
146.5029005303
 30
0.0
 11
239.5275510204
 21
83.5029005303
 31
0.0
  0
INSERT
  5
93
330
1F
100
AcDbEntity
  8
FORMAT
100
AcDbBlockReference
  2
SW_CENTERMARKSYMBOL_0
 10
118.5275510204
 20
115.0029005303
 30
0.0
  0
LINE
  5
94
330
1F
100
AcDbEntity
  8
0
  6
Continuous
 62
     7
370
    25
100
AcDbLine
 10
81.0275510204
 20
26.1402486545
 30
0.0
 11
81.0275510204
 21
-234.8597513455
 31
0.0
  0
LINE
  5
95
330
1F
100
AcDbEntity
  8
0
  6
Continuous
 62
     7
370
    25
100
AcDbLine
 10
156.0275510204
 20
-72.8798547578
 30
0.0
 11
156.0275510204
 21
26.1402486545
 31
0.0
  0
LINE
  5
96
330
1F
100
AcDbEntity
  8
0
  6
Continuous
 62
     7
370
    25
100
AcDbLine
 10
156.0275510204
 20
-234.8597513455
 30
0.0
 11
156.0275510204
 21
-135.8597513455
 31
0.0
  0
LINE
  5
97
330
1F
100
AcDbEntity
  8
0
  6
Continuous
 62
     7
370
    25
100
AcDbLine
 10
156.0275510204
 20
-135.8597513455
 30
0.0
 11
239.5275510204
 21
-135.8597513455
 31
0.0
  0
LINE
  5
98
330
1F
100
AcDbEntity
  8
0
  6
Continuous
 62
     7
370
    25
100
AcDbLine
 10
239.5275510204
 20
-72.8597513455
 30
0.0
 11
156.0106577229
 21
-72.8597513455
 31
0.0
  0
SPLINE
  5
99
330
1F
100
AcDbEntity
  8
0
  6
Continuous
 62
     7
370
    25
100
AcDbSpline
210
0.0
220
0.0
230
1.0
 70
     8
 71
     3
 72
    38
 73
    34
 74
     0
 42
0.000000001
 43
0.00000001
 40
0.0
 40
0.0
 40
0.0
 40
0.0
 40
0.0069269943878584
 40
0.0458978951995841
 40
0.0860074516916677
 40
0.1251723481484048
 40
0.1651908789618422
 40
0.1934411779218346
 40
0.2216963974226194
 40
0.2507552986320286
 40
0.2798169979440973
 40
0.308634913712192
 40
0.3374518176396603
 40
0.3670136916659952
 40
0.3965646239279956
 40
0.4286143273503877
 40
0.4612963535708075
 40
0.4934255966318635
 40
0.5268414915375152
 40
0.5544787177318653
 40
0.5826974208674697
 40
0.6075758560552785
 40
0.632464061953703
 40
0.6834968345591383
 40
0.7368082791553427
 40
0.7640341691371505
 40
0.7912573313586723
 40
0.8392437767292523
 40
0.8638769945079411
 40
0.8885062776860898
 40
0.9287034908307951
 40
0.9700144940893716
 40
1.0
 40
1.0
 40
1.0
 40
1.0
 10
156.010656488441
 20
-72.87985475775073
 30
0.0
 10
156.0152461326799
 20
-72.87439507486908
 30
0.0
 10
156.04565687051
 20
-72.83821950741604
 30
0.0
 10
155.7698455581304
 20
-73.16636551399367
 30
0.0
 10
155.0308263415624
 20
-74.05098372927846
 30
0.0
 10
153.8704382260262
 20
-75.45642164335975
 30
0.0
 10
152.542398251193
 20
-77.09493839886497
 30
0.0
 10
151.1776805890185
 20
-78.81822672018252
 30
0.0
 10
149.8700099164689
 20
-80.51060824088532
 30
0.0
 10
148.474647464304
 20
-82.3726208241
 30
0.0
 10
147.0228866918943
 20
-84.39219581305035
 30
0.0
 10
145.5550286311351
 20
-86.54285908797316
 30
0.0
 10
144.0935691964779
 20
-88.84270649434131
 30
0.0
 10
142.6708119555381
 20
-91.30262449834366
 30
0.0
 10
141.3093709649739
 20
-94.0113199910729
 30
0.0
 10
140.0992402521352
 20
-96.99170118193567
 30
0.0
 10
139.1984996499427
 20
-100.2483282903878
 30
0.0
 10
138.784465290595
 20
-103.7009699703947
 30
0.0
 10
138.9635390788931
 20
-107.0067692545325
 30
0.0
 10
139.6035541018019
 20
-110.073832652962
 30
0.0
 10
140.4842275053632
 20
-112.7212615381447
 30
0.0
 10
141.5285579411748
 20
-115.1487719378545
 30
0.0
 10
143.0424162352462
 20
-118.1319663963031
 30
0.0
 10
145.1859054530918
 20
-121.6752726213482
 30
0.0
 10
147.4268697724027
 20
-124.9121695512394
 30
0.0
 10
149.1978870401391
 20
-127.3191650254844
 30
0.0
 10
150.8128502749697
 20
-129.4404835108274
 30
0.0
 10
152.2577779268674
 20
-131.268916330963
 30
0.0
 10
153.4732170036531
 20
-132.773337862125
 30
0.0
 10
154.453700903775
 20
-133.9713357069362
 30
0.0
 10
155.3585187556795
 20
-135.0618900399165
 30
0.0
 10
155.9379084527137
 20
-135.7530927280557
 30
0.0
 10
156.0010114838346
 20
-135.8281740452476
 30
0.0
 10
156.027551020408
 20
-135.8597513455485
 30
0.0
  0
LINE
  5
9A
330
1F
100
AcDbEntity
  8
0
  6
Continuous
 62
     7
370
    25
100
AcDbLine
 10
156.0275510204
 20
-234.8597513455
 30
0.0
 11
81.0275510204
 21
-234.8597513455
 31
0.0
  0
LINE
  5
9B
330
1F
100
AcDbEntity
  8
0
  6
Continuous
 62
     7
370
    25
100
AcDbLine
 10
156.0275510204
 20
26.1402486545
 30
0.0
 11
81.0275510204
 21
26.1402486545
 31
0.0
  0
LINE
  5
9C
330
1F
100
AcDbEntity
  8
0
  6
Continuous
 62
     7
370
    25
100
AcDbLine
 10
239.5275510204
 20
-72.8597513455
 30
0.0
 11
239.5275510204
 21
-135.8597513455
 31
0.0
  0
LINE
  5
9D
330
1F
100
AcDbEntity
  8
0
  6
Continuous
 62
     7
370
    25
100
AcDbLine
 10
156.0275510204
 20
347.7394710388
 30
0.0
 11
156.0275510204
 21
446.7394710388
 31
0.0
  0
LINE
  5
9E
330
1F
100
AcDbEntity
  8
0
  6
Continuous
 62
     7
370
    25
100
AcDbLine
 10
156.0275510204
 20
185.7394710388
 30
0.0
 11
156.0275510204
 21
284.7596189576
 31
0.0
  0
LINE
  5
9F
330
1F
100
AcDbEntity
  8
0
  6
Continuous
 62
     7
370
    25
100
AcDbLine
 10
81.0275510204
 20
446.7394710388
 30
0.0
 11
81.0275510204
 21
185.7394710388
 31
0.0
  0
LINE
  5
A0
330
1F
100
AcDbEntity
  8
0
  6
Continuous
 62
     7
370
    25
100
AcDbLine
 10
156.0106308645
 20
284.7394710388
 30
0.0
 11
239.5275510204
 21
284.7394710388
 31
0.0
  0
LINE
  5
A1
330
1F
100
AcDbEntity
  8
0
  6
Continuous
 62
     7
370
    25
100
AcDbLine
 10
239.5275510204
 20
347.7394710388
 30
0.0
 11
156.0275510204
 21
347.7394710388
 31
0.0
  0
SPLINE
  5
A2
330
1F
100
AcDbEntity
  8
0
  6
Continuous
 62
     7
370
    25
100
AcDbSpline
210
0.0
220
0.0
230
1.0
 70
     8
 71
     3
 72
    40
 73
    36
 74
     0
 42
0.000000001
 43
0.00000001
 40
0.0
 40
0.0
 40
0.0
 40
0.0
 40
0.0415657021620591
 40
0.0845351894597205
 40
0.1260641693662021
 40
0.1686128705699181
 40
0.19698167086273
 40
0.2255679442340965
 40
0.2547661854404362
 40
0.2841493085432912
 40
0.3131122835648043
 40
0.3422422418681946
 40
0.3719420479191602
 40
0.4018861052876222
 40
0.4333478967596607
 40
0.4654511133781587
 40
0.4969880240722284
 40
0.5297544784278451
 40
0.5635608128852568
 40
0.5983367003706697
 40
0.6254948166970747
 40
0.6528629030056511
 40
0.6807671304062182
 40
0.7088255631146609
 40
0.7376036875935175
 40
0.7665503823339729
 40
0.7960710370591215
 40
0.8258181076895835
 40
0.8703122123587088
 40
0.8930725460508607
 40
0.9160031058148519
 40
0.9382113658488823
 40
0.9606102571006631
 40
0.9836501649159102
 40
0.9999999999999999
 40
0.9999999999999999
 40
0.9999999999999999
 40
0.9999999999999999
 10
156.027551020408
 20
347.7394710387936
 30
0.0
 10
155.9772446735363
 20
347.679666762084
 30
0.0
 10
155.8749329996654
 20
347.5580384579973
 30
0.0
 10
155.0685774125799
 20
346.5940653950727
 30
0.0
 10
153.8470930458065
 20
345.1148189022774
 30
0.0
 10
152.437485028086
 20
343.3742633611134
 30
0.0
 10
151.0154682884488
 20
341.5734374681825
 30
0.0
 10
149.6868911168363
 20
339.8481169351806
 30
0.0
 10
148.2707488246011
 20
337.9482395486675
 30
0.0
 10
146.8034919482984
 20
335.8940597334133
 30
0.0
 10
145.3228230997154
 20
333.7023755359388
 30
0.0
 10
143.8559008100135
 20
331.3647170943497
 30
0.0
 10
142.4344440588227
 20
328.8554666234921
 30
0.0
 10
141.0987336479254
 20
326.1202715094353
 30
0.0
 10
139.9423926408818
 20
323.1339498300205
 30
0.0
 10
139.1171208538699
 20
319.9120544151604
 30
0.0
 10
138.7792617426946
 20
316.5126015571861
 30
0.0
 10
139.0278665342852
 20
313.0388515346865
 30
0.0
 10
139.8539820511973
 20
309.582638419996
 30
0.0
 10
141.0296817892242
 20
306.5161034834402
 30
0.0
 10
142.3312944056374
 20
303.8296007469555
 30
0.0
 10
143.6397763210797
 20
301.4824170123727
 30
0.0
 10
145.0242794417115
 20
299.2389372200644
 30
0.0
 10
146.4572714039609
 20
297.0862369341082
 30
0.0
 10
147.9012495654613
 20
295.0392820317714
 30
0.0
 10
149.3330619565642
 20
293.0988438260541
 30
0.0
 10
150.7146453759098
 20
291.2913484854452
 30
0.0
 10
152.2261349325017
 20
289.3680309768706
 30
0.0
 10
153.4668865426352
 20
287.832236874384
 30
0.0
 10
154.418713934493
 20
286.6718301267099
 30
0.0
 10
155.0190074083719
 20
285.9464193772495
 30
0.0
 10
155.4905048489366
 20
285.3803998189251
 30
0.0
 10
155.8207867912816
 20
284.9857449722838
 30
0.0
 10
156.0072904946269
 20
284.763584414772
 30
0.0
 10
156.0096501654264
 20
284.7607821270075
 30
0.0
 10
156.0106296140236
 20
284.7596189576279
 30
0.0
  0
LINE
  5
A3
330
1F
100
AcDbEntity
  8
0
  6
Continuous
 62
     7
370
    25
100
AcDbLine
 10
81.0275510204
 20
446.7394710388
 30
0.0
 11
156.0275510204
 21
446.7394710388
 31
0.0
  0
LINE
  5
A4
330
1F
100
AcDbEntity
  8
0
  6
Continuous
 62
     7
370
    25
100
AcDbLine
 10
81.0275510204
 20
185.7394710388
 30
0.0
 11
156.0275510204
 21
185.7394710388
 31
0.0
  0
LINE
  5
A5
330
1F
100
AcDbEntity
  8
0
  6
Continuous
 62
     7
370
    25
100
AcDbLine
 10
239.5275510204
 20
347.7394710388
 30
0.0
 11
239.5275510204
 21
284.7394710388
 31
0.0
  0
LINE
  5
A6
330
1F
100
AcDbEntity
  8
0
  6
Continuous
 62
     7
370
    25
100
AcDbLine
 10
283.1343319689
 20
77.5029005303
 30
0.0
 11
544.1343319689
 21
77.5029005303
 31
0.0
  0
LINE
  5
A7
330
1F
100
AcDbEntity
  8
0
  6
Continuous
 62
     7
370
    25
100
AcDbLine
 10
544.1343319689
 20
152.5029005303
 30
0.0
 11
283.1343319689
 21
152.5029005303
 31
0.0
  0
LINE
  5
A8
330
1F
100
AcDbEntity
  8
0
  6
Continuous
 62
     7
370
    25
100
AcDbLine
 10
544.1343319689
 20
152.5029005303
 30
0.0
 11
544.1343319689
 21
77.5029005303
 31
0.0
  0
LINE
  5
A9
330
1F
100
AcDbEntity
  8
0
  6
Continuous
 62
     7
370
    25
100
AcDbLine
 10
283.1343319689
 20
152.5029005303
 30
0.0
 11
283.1343319689
 21
77.5029005303
 31
0.0
  0
LINE
  5
AA
330
1F
100
AcDbEntity
  8
0
  6
Continuous
 62
     7
370
    25
100
AcDbLine
 10
30.987701302
 20
152.5029005303
 30
0.0
 11
-230.012298698
 21
152.5029005303
 31
0.0
  0
LINE
  5
AB
330
1F
100
AcDbEntity
  8
0
  6
Continuous
 62
     7
370
    25
100
AcDbLine
 10
-230.012298698
 20
77.5029005303
 30
0.0
 11
30.987701302
 21
77.5029005303
 31
0.0
  0
CIRCLE
  5
AC
330
1F
100
AcDbEntity
  8
0
  6
Continuous
 62
     7
370
    25
100
AcDbCircle
 10
-99.512298698
 20
115.0029005303
 30
0.0
 40
25.7
  0
CIRCLE
  5
AD
330
1F
100
AcDbEntity
  8
0
  6
Continuous
 62
     7
370
    25
100
AcDbCircle
 10
-99.512298698
 20
115.0029005303
 30
0.0
 40
31.49999999999999
  0
LINE
  5
AE
330
1F
100
AcDbEntity
  8
0
  6
Continuous
 62
     7
370
    25
100
AcDbLine
 10
-230.012298698
 20
115.0029005303
 30
0.0
 11
-230.012298698
 21
152.5029005303
 31
0.0
  0
LINE
  5
AF
330
1F
100
AcDbEntity
  8
0
  6
Continuous
 62
     7
370
    25
100
AcDbLine
 10
-230.012298698
 20
77.5029005303
 30
0.0
 11
-230.012298698
 21
115.0029005303
 31
0.0
  0
LINE
  5
B0
330
1F
100
AcDbEntity
  8
0
  6
Continuous
 62
     7
370
    25
100
AcDbLine
 10
30.987701302
 20
115.0029005303
 30
0.0
 11
30.987701302
 21
152.5029005303
 31
0.0
  0
LINE
  5
B1
330
1F
100
AcDbEntity
  8
0
  6
Continuous
 62
     7
370
    25
100
AcDbLine
 10
30.987701302
 20
77.5029005303
 30
0.0
 11
30.987701302
 21
115.0029005303
 31
0.0
  0
INSERT
  5
BD
330
1F
100
AcDbEntity
  8
FORMAT
100
AcDbBlockReference
  2
SW_CENTERMARKSYMBOL_1
 10
-99.512298698
 20
115.0029005303
 30
0.0
  0
LINE
  5
BE
330
1F
100
AcDbEntity
  8
0
  6
Continuous
 62
     7
370
    25
100
AcDbLine
 10
419.8129450545
 20
-73.2382676967
 30
0.0
 11
340.2834987028
 21
-27.3268955689
 31
0.0
  0
LINE
  5
BF
330
1F
100
AcDbEntity
  8
0
  6
Continuous
 62
     7
370
    25
100
AcDbLine
 10
524.8383685925
 20
-133.8681541617
 30
0.0
 11
482.8180653146
 21
-109.6103494213
 31
0.0
  0
LINE
  5
C0
330
1F
100
AcDbEntity
  8
0
  6
Continuous
 62
     7
370
    25
100
AcDbLine
 10
302.7865462289
 20
-92.2805602474
 30
0.0
 11
487.3414161186
 21
-198.8218188403
 31
0.0
  0
LINE
  5
C1
330
1F
100
AcDbEntity
  8
0
  6
Continuous
 62
     7
370
    25
100
AcDbLine
 10
450.8867616183
 20
-128.043898676
 30
0.0
 11
515.1210979733
 21
-90.9622056043
 31
0.0
  0
LINE
  5
C2
330
1F
100
AcDbEntity
  8
0
  6
Continuous
 62
     7
370
    25
100
AcDbLine
 10
483.6236578953
 20
-36.4011272743
 30
0.0
 11
419.3903807441
 21
-73.4822088807
 31
0.0
  0
SPLINE
  5
C3
330
1F
100
AcDbEntity
  8
0
  6
Continuous
 62
     7
370
    25
100
AcDbSpline
210
0.0
220
0.0
230
1.0
 70
     8
 71
     3
 72
    31
 73
    27
 74
     0
 42
0.000000001
 43
0.00000001
 40
0.0
 40
0.0
 40
0.0
 40
0.0
 40
0.0551426005035608
 40
0.1121475143784572
 40
0.1672413977772041
 40
0.2236880812296859
 40
0.2613231827663498
 40
0.2992467921464338
 40
0.3379822607298915
 40
0.3769630004871679
 40
0.4153863562331878
 40
0.4540312381877012
 40
0.4934321012770909
 40
0.5331569972138183
 40
0.574895375444622
 40
0.6174846920396148
 40
0.6593227262135433
 40
0.7027919185636533
 40
0.7476406543845153
 40
0.7937756351744056
 40
0.8298045985052154
 40
0.8661121157937923
 40
0.9031308977191105
 40
0.9403542541191857
 40
0.9785323802865776
 40
1.0
 40
1.0
 40
1.0
 40
1.0
 10
418.0550980978322
 20
-84.90827734670111
 30
0.0
 10
418.0618141484279
 20
-86.15246907853903
 30
0.0
 10
418.0754730686431
 20
-88.68287223075963
 30
0.0
 10
418.1869254546425
 20
-92.9217334627971
 30
0.0
 10
418.3691908018857
 20
-97.34467101878843
 30
0.0
 10
418.603206039929
 20
-101.3216106181753
 30
0.0
 10
418.8710645609997
 20
-104.8112918753251
 30
0.0
 10
419.1516044822253
 20
-107.7945572274581
 30
0.0
 10
419.4936568477008
 20
-110.7537217247799
 30
0.0
 10
419.9086740378156
 20
-113.6495483090192
 30
0.0
 10
420.4114378127359
 20
-116.4525858196352
 30
0.0
 10
421.0271412496389
 20
-119.1603659201276
 30
0.0
 10
421.7963275680994
 20
-121.7716243564256
 30
0.0
 10
422.7859126813009
 20
-124.2911527253332
 30
0.0
 10
424.0799044659123
 20
-126.6615256892958
 30
0.0
 10
425.7745731256399
 20
-128.7644070281806
 30
0.0
 10
427.9394474200662
 20
-130.4668458592623
 30
0.0
 10
430.5715474314943
 20
-131.6537874447395
 30
0.0
 10
433.5996201270559
 20
-132.2799075030505
 30
0.0
 10
436.5993005720905
 20
-132.3646312282304
 30
0.0
 10
439.4194209055451
 20
-132.0961163789224
 30
0.0
 10
442.0040208451554
 20
-131.6038047463091
 30
0.0
 10
444.5707154994683
 20
-130.8876686030602
 30
0.0
 10
447.1011545672137
 20
-129.9444121425118
 30
0.0
 10
449.2187238844896
 20
-128.9915198368126
 30
0.0
 10
450.4347390455665
 20
-128.2762868564992
 30
0.0
 10
450.8724056495842
 20
-128.0188611272854
 30
0.0
  0
SPLINE
  5
C4
330
1F
100
AcDbEntity
  8
0
  6
Continuous
 62
     7
370
    25
100
AcDbSpline
210
0.0
220
0.0
230
1.0
 70
     8
 71
     3
 72
    15
 73
    11
 74
     0
 42
0.000000001
 43
0.00000001
 40
0.0
 40
0.0
 40
0.0
 40
0.0
 40
0.0410704203680302
 40
0.1519815902606485
 40
0.3469266721110578
 40
0.4466176101707096
 40
0.5470564103167008
 40
0.7103577123018077
 40
0.87818379004882
 40
1.0
 40
1.0
 40
1.0
 40
1.0
 10
419.4022724661125
 20
-73.50309432152002
 30
0.0
 10
419.3590563995048
 20
-73.52081331420533
 30
0.0
 10
419.1991348192288
 20
-73.58638266221782
 30
0.0
 10
418.9114817008416
 20
-74.01668257195655
 30
0.0
 10
418.6352322304769
 20
-74.83707544650952
 30
0.0
 10
418.4316527187646
 20
-76.04643610731603
 30
0.0
 10
418.2775822014497
 20
-77.40695320669755
 30
0.0
 10
418.1462151306113
 20
-79.43620951355011
 30
0.0
 10
418.0671265856926
 20
-82.068574623055
 30
0.0
 10
418.0586592463101
 20
-84.06755628939197
 30
0.0
 10
418.0550980978322
 20
-84.90827734670111
 30
0.0
  0
LWPOLYLINE
  5
C5
330
1F
100
AcDbEntity
  8
0
  6
Continuous
 62
     7
370
    25
100
AcDbPolyline
 90
       84
 70
   128
 43
0.0
 10
348.0515267604
 20
-44.4960758115
 10
347.9755846927
 20
-42.2241428252
 10
347.7481934791
 20
-40.0529041103
 10
347.3706555957
 20
-37.9947963255
 10
346.8451335455
 20
-36.0616081258
 10
346.174637471
 20
-34.2644126381
 10
345.3630079131
 20
-32.6135040355
 10
344.4148938125
 20
-31.1183385729
 10
343.3357258807
 20
-29.7874804227
 10
342.1316854941
 20
-28.6285526198
 10
340.8096692868
 20
-27.6481933978
 10
339.3772496481
 20
-26.8520181655
 10
337.8426313478
 20
-26.2445873425
 10
336.2146045406
 20
-25.8293802375
 10
334.5024944167
 20
-25.6087751194
 10
332.7161077878
 20
-25.5840355941
 10
330.8656769148
 20
-25.7553033675
 10
328.961800898
 20
-26.1215974332
 10
327.0153849669
 20
-26.6808196921
 10
325.0375780157
 20
-27.4297669697
 10
323.0397087435
 20
-28.3641493637
 10
321.0332207646
 20
-29.4786148166
 10
319.0296070604
 20
-30.7667797709
 10
317.0403441487
 20
-32.2212657347
 10
315.0768263474
 20
-33.8337415439
 10
313.1503005086
 20
-35.5949710832
 10
311.2718015979
 20
-37.4948661892
 10
309.4520894869
 20
-39.522544435
 10
307.7015873218
 20
-41.6663914629
 10
306.0303218204
 20
-43.9141275116
 10
304.4478658402
 20
-46.2528777524
 10
302.9632835458
 20
-48.6692460357
 10
301.58507849
 20
-51.1493916228
 10
300.3211449067
 20
-53.6791084645
 10
299.178722493
 20
-56.2439065716
 10
298.1643549409
 20
-58.8290950131
 10
297.283852456
 20
-61.4198660634
 10
296.5422584767
 20
-64.0013800208
 10
295.9438207862
 20
-66.5588502071
 10
295.4919671814
 20
-69.0776276645
 10
295.1892858389
 20
-71.543285064
 10
295.0375104899
 20
-73.9416993432
 10
295.0375104899
 20
-76.2591326023
 10
295.1892858389
 20
-78.4823107936
 10
295.4919671814
 20
-80.5984997536
 10
295.9438207862
 20
-82.5955781436
 10
296.5422584767
 20
-84.4621068795
 10
297.283852456
 20
-86.1873946537
 10
298.1643549409
 20
-87.7615591741
 10
299.178722493
 20
-89.1755837688
 10
300.3211449067
 20
-90.421369033
 10
301.58507849
 20
-91.4917792216
 10
302.9632835458
 20
-92.3806831219
 10
304.4478658402
 20
-93.0829891729
 10
306.0303218204
 20
-93.5946746291
 10
307.7015873218
 20
-93.9128086026
 10
309.4520894869
 20
-94.0355688508
 10
311.2718015979
 20
-93.962252214
 10
313.1503005086
 20
-93.6932786434
 10
315.0768263474
 20
-93.2301887952
 10
317.0403441487
 20
-92.5756352062
 10
319.0296070604
 20
-91.7333670999
 10
321.0332207646
 20
-90.7082089118
 10
323.0397087435
 20
-89.5060326553
 10
325.0375780157
 20
-88.133724287
 10
327.0153849669
 20
-86.5991442649
 10
328.961800898
 20
-84.9110825246
 10
330.8656769148
 20
-83.0792081307
 10
332.7161077878
 20
-81.1140138939
 10
334.5024944167
 20
-79.0267562688
 10
336.2146045406
 20
-76.8293908781
 10
337.8426313478
 20
-74.5345040318
 10
339.3772496481
 20
-72.1552406338
 10
340.8096692868
 20
-69.7052288895
 10
342.1316854941
 20
-67.1985022442
 10
343.3357258807
 20
-64.6494190012
 10
344.4148938125
 20
-62.0725800784
 10
345.3630079131
 20
-59.4827453759
 10
346.174637471
 20
-56.8947492322
 10
346.8451335455
 20
-54.323415455
 10
347.3706555957
 20
-51.7834724112
 10
347.7481934791
 20
-49.2894686645
 10
347.9755846927
 20
-46.8556896427
 10
348.0515267604
 20
-44.4960758115
  0
LWPOLYLINE
  5
C6
330
1F
100
AcDbEntity
  8
0
  6
Continuous
 62
     7
370
    25
100
AcDbPolyline
 90
       12
 70
   128
 43
0.0
 10
532.6063966501
 20
-151.0373344043
 10
532.5304545824
 20
-148.7654014181
 10
532.3030633688
 20
-146.5941627032
 10
531.9255254854
 20
-144.5360549184
 10
531.4000034352
 20
-142.6028667187
 10
530.7295073607
 20
-140.805671231
 10
529.9178778028
 20
-139.1547626284
 10
528.9697637022
 20
-137.6595971658
 10
527.8905957704
 20
-136.3287390156
 10
526.6865553838
 20
-135.1698112127
 10
525.3645391765
 20
-134.1894519907
 10
524.8383685925
 20
-133.8681541617
  0
LWPOLYLINE
  5
C7
330
1F
100
AcDbEntity
  8
0
  6
Continuous
 62
     7
370
    25
100
AcDbPolyline
 90
       33
 70
   128
 43
0.0
 10
487.3414161186
 20
-198.8218188403
 10
487.5181534354
 20
-198.9219417148
 10
489.0027357299
 20
-199.6242477658
 10
490.5851917101
 20
-200.135933222
 10
492.2564572114
 20
-200.4540671955
 10
494.0069593766
 20
-200.5768274436
 10
495.8266714876
 20
-200.5035108069
 10
497.7051703983
 20
-200.2345372363
 10
499.6316962371
 20
-199.7714473881
 10
501.5952140384
 20
-199.116893799
 10
503.5844769501
 20
-198.2746256927
 10
505.5880906543
 20
-197.2494675047
 10
507.5945786332
 20
-196.0472912481
 10
509.5924479054
 20
-194.6749828798
 10
511.5702548566
 20
-193.1404028578
 10
513.5166707877
 20
-191.4523411174
 10
515.4205468045
 20
-189.6204667236
 10
517.2709776775
 20
-187.6552724868
 10
519.0573643064
 20
-185.5680148617
 10
520.7694744303
 20
-183.370649471
 10
522.3975012375
 20
-181.0757626246
 10
523.9321195377
 20
-178.6964992267
 10
525.3645391765
 20
-176.2464874823
 10
526.6865553838
 20
-173.739760837
 10
527.8905957704
 20
-171.190677594
 10
528.9697637022
 20
-168.6138386713
 10
529.9178778028
 20
-166.0240039687
 10
530.7295073607
 20
-163.4360078251
 10
531.4000034352
 20
-160.8646740478
 10
531.9255254854
 20
-158.324731004
 10
532.3030633688
 20
-155.8307272574
 10
532.5304545824
 20
-153.3969482356
 10
532.6063966501
 20
-151.0373344043
  0
LWPOLYLINE
  5
C8
330
1F
100
AcDbEntity
  8
0
  6
Continuous
 62
     7
370
    25
100
AcDbPolyline
 90
       76
 70
   128
 43
0.0
 10
343.2432006483
 20
-47.2718633917
 10
343.167067012
 20
-45.2181947186
 10
342.9392001258
 20
-43.2668330811
 10
342.5611983121
 20
-41.4314658791
 10
342.0357129823
 20
-39.7249668948
 10
341.3664300381
 20
-38.1593059924
 10
340.5580440187
 20
-36.7454651582
 10
339.6162251711
 20
-35.4933614699
 10
338.5475796779
 20
-34.4117775352
 10
337.3596033193
 20
-33.5082998883
 10
336.060628896
 20
-32.7892657757
 10
334.6597677802
 20
-32.2597187051
 10
333.1668460062
 20
-31.9233730687
 10
331.5923353475
 20
-31.7825880895
 10
329.947279865
 20
-31.838351273
 10
328.2432184412
 20
-32.0902714804
 10
326.4921038423
 20
-32.5365816726
 10
324.7062188793
 20
-33.1741513043
 10
322.898090252
 20
-33.9985082825
 10
321.0804006835
 20
-35.0038703353
 10
319.2658999601
 20
-36.1831855704
 10
317.4673155008
 20
-37.5281819386
 10
315.6972630832
 20
-39.0294252568
 10
313.9681583532
 20
-40.6763853818
 10
312.2921297382
 20
-42.4575100716
 10
310.6809333747
 20
-44.3603060164
 10
309.1458706474
 20
-46.3714264696
 10
307.6977089187
 20
-48.4767648663
 10
306.3466060023
 20
-50.6615537704
 10
305.1020389146
 20
-52.9104684573
 10
303.9727373994
 20
-55.2077344066
 10
302.9666226954
 20
-57.537237948
 10
302.0907519745
 20
-59.882639288
 10
301.3512688404
 20
-62.2274871214
 10
300.7533602359
 20
-64.5553340254
 10
300.3012200604
 20
-66.8498518265
 10
299.9980197523
 20
-69.0949461309
 10
299.845886044
 20
-71.2748692152
 10
299.845886044
 20
-73.3743304853
 10
299.9980197523
 20
-75.3786037288
 10
300.3012200604
 20
-77.2736304089
 10
300.7533602359
 20
-79.046118275
 10
301.3512688404
 20
-80.6836345984
 10
302.0907519745
 20
-82.1746933786
 10
302.9666226954
 20
-83.5088359095
 10
303.9727373994
 20
-84.6767041398
 10
305.1020389146
 20
-85.6701063131
 10
306.3466060023
 20
-86.4820744269
 10
307.6977089187
 20
-87.1069131082
 10
309.1458706474
 20
-87.5402395626
 10
310.6809333747
 20
-87.7790143164
 10
312.2921297382
 20
-87.8215625363
 10
313.9681583532
 20
-87.6675857771
 10
315.6972630832
 20
-87.318164075
 10
317.4673155008
 20
-86.7757483724
 10
319.2658999601
 20
-86.0441433255
 10
321.0804006835
 20
-85.1284806182
 10
322.898090252
 20
-84.0351829665
 10
324.7062188793
 20
-82.7719190678
 10
326.4921038423
 20
-81.3475498108
 10
328.2432184412
 20
-79.7720661223
 10
329.947279865
 20
-78.0565188885
 10
331.5923353475
 20
-76.2129414405
 10
333.1668460062
 20
-74.2542651496
 10
334.6597677802
 20
-72.1942287227
 10
336.060628896
 20
-70.0472818352
 10
337.3596033193
 20
-67.8284837768
 10
338.5475796779
 20
-65.5533978217
 10
339.6162251711
 20
-63.2379820634
 10
340.5580440187
 20
-60.8984774797
 10
341.3664300381
 20
-58.5512940143
 10
342.0357129823
 20
-56.2128954728
 10
342.5611983121
 20
-53.8996840408
 10
342.9392001258
 20
-51.6278852345
 10
343.167067012
 20
-49.4134340902
 10
343.2432006483
 20
-47.2718633917
  0
LWPOLYLINE
  5
C9
330
1F
100
AcDbEntity
  8
0
  6
Continuous
 62
     7
370
    25
100
AcDbPolyline
 90
       69
 70
   128
 43
0.0
 10
517.5450222108
 20
-74.1725106762
 10
517.467500914
 20
-72.1914979387
 10
517.2355984082
 20
-70.1378823193
 10
516.8512932037
 20
-68.0291845424
 10
516.317864057
 20
-65.883395274
 10
515.6398619975
 20
-63.7188216314
 10
514.8230714997
 20
-61.5539309939
 10
513.8744611322
 20
-59.4071934449
 10
512.8021241041
 20
-57.2969241924
 10
511.6152092169
 20
-55.2411273096
 10
510.3238428099
 20
-53.2573421305
 10
508.939042366
 20
-51.362493611
 10
507.4726225142
 20
-49.5727479304
 10
505.9370942318
 20
-47.9033745678
 10
504.3455581045
 20
-46.3686160282
 10
502.7115925575
 20
-44.9815663304
 10
501.0491380088
 20
-43.7540592932
 10
499.3723779343
 20
-42.6965675738
 10
497.6956178598
 20
-41.8181133189
 10
496.033163311
 20
-41.1261911903
 10
494.3991977641
 20
-40.6267044237
 10
492.8076616368
 20
-40.3239144641
 10
491.2721333544
 20
-40.2204046086
 10
489.8057135026
 20
-40.3170579669
 10
488.4209130587
 20
-40.6130499265
 10
487.1295466517
 20
-41.1058551884
 10
485.9426317645
 20
-41.7912693119
 10
484.8702947364
 20
-42.6634445854
 10
483.9216843689
 20
-43.7149399169
 10
483.1048938711
 20
-44.936784319
 10
482.4268918116
 20
-46.3185534461
 10
481.8934626649
 20
-47.8484585312
 10
481.5091574604
 20
-49.5134469636
 10
481.2772549545
 20
-51.2993136489
 10
481.1997336578
 20
-53.1908222024
 10
481.2772549545
 20
-55.1718349399
 10
481.5091574604
 20
-57.2254505593
 10
481.8934626649
 20
-59.3341483362
 10
482.4268918116
 20
-61.4799376046
 10
483.1048938711
 20
-63.6445112472
 10
483.9216843689
 20
-65.8094018848
 10
484.8702947364
 20
-67.9561394337
 10
485.9426317645
 20
-70.0664086862
 10
487.1295466517
 20
-72.1222055691
 10
488.4209130587
 20
-74.1059907481
 10
489.8057135026
 20
-76.0008392677
 10
491.2721333544
 20
-77.7905849483
 10
492.8076616368
 20
-79.4599583108
 10
494.3991977641
 20
-80.9947168504
 10
496.033163311
 20
-82.3817665482
 10
497.6956178598
 20
-83.6092735855
 10
499.3723779343
 20
-84.6667653048
 10
501.0491380088
 20
-85.5452195597
 10
502.7115925575
 20
-86.2371416883
 10
504.3455581045
 20
-86.7366284549
 10
505.9370942318
 20
-87.0394184145
 10
507.4726225142
 20
-87.14292827
 10
508.939042366
 20
-87.0462749118
 10
510.3238428099
 20
-86.7502829522
 10
511.6152092169
 20
-86.2574776902
 10
512.8021241041
 20
-85.5720635667
 10
513.8744611322
 20
-84.6998882933
 10
514.8230714997
 20
-83.6483929618
 10
515.6398619975
 20
-82.4265485596
 10
516.317864057
 20
-81.0447794325
 10
516.8512932037
 20
-79.5148743474
 10
517.2355984082
 20
-77.849885915
 10
517.467500914
 20
-76.0640192297
 10
517.5450222108
 20
-74.1725106762
  0
LWPOLYLINE
  5
CA
330
1F
100
AcDbEntity
  8
0
  6
Continuous
 62
     7
370
    25
100
AcDbPolyline
 90
       77
 70
   128
 43
0.0
 10
521.6462415417
 20
-76.5400942005
 10
521.5701650047
 20
-74.372149868
 10
521.3424550739
 20
-72.1311786936
 10
520.9646672388
 20
-69.8324887828
 10
520.4393821734
 20
-67.4917825186
 10
519.7701881075
 20
-65.1250492982
 10
518.9616563149
 20
-62.7484563092
 10
518.0193098878
 20
-60.3782380917
 10
516.9495860076
 20
-58.0305856395
 10
515.7597919733
 20
-55.7215357992
 10
514.4580552845
 20
-53.4668617227
 10
513.0532681227
 20
-51.2819651201
 10
511.5550266086
 20
-49.1817710506
 10
509.9735652511
 20
-47.1806259693
 10
508.3196870347
 20
-45.2921997262
 10
506.6046896247
 20
-43.5293921875
 10
504.8402881924
 20
-41.9042451161
 10
503.0385353887
 20
-40.4278599143
 10
501.2117390121
 20
-39.1103217901
 10
499.3723779343
 20
-37.9606308649
 10
497.5330168564
 20
-36.9866406935
 10
495.7062204799
 20
-36.1950046163
 10
493.9044676761
 20
-35.5911303104
 10
492.1400662438
 20
-35.1791428498
 10
490.4250688339
 20
-34.9618565264
 10
488.7711906175
 20
-34.9407556263
 10
487.18972926
 20
-35.1159842899
 10
485.6914877459
 20
-35.4863455278
 10
484.2867005841
 20
-36.0493093972
 10
482.9849638953
 20
-36.8010302841
 10
481.7951698609
 20
-37.7363731725
 10
480.7254459808
 20
-38.848948722
 10
479.7830995536
 20
-40.1311569137
 10
478.9745677611
 20
-41.5742389653
 10
478.3053736951
 20
-43.1683371632
 10
477.7800886298
 20
-44.9025622003
 10
477.4023007947
 20
-46.7650675611
 10
477.1745908638
 20
-48.7431304454
 10
477.0985143269
 20
-50.8232386781
 10
477.1745908638
 20
-52.9911830106
 10
477.4023007947
 20
-55.232154185
 10
477.7800886298
 20
-57.5308440958
 10
478.3053736951
 20
-59.87155036
 10
478.9745677611
 20
-62.2382835804
 10
479.7830995536
 20
-64.6148765694
 10
480.7254459808
 20
-66.9850947869
 10
481.7951698609
 20
-69.3327472391
 10
482.9849638953
 20
-71.6417970794
 10
484.2867005841
 20
-73.8964711559
 10
485.6914877459
 20
-76.0813677586
 10
487.18972926
 20
-78.1815618281
 10
488.7711906175
 20
-80.1827069093
 10
490.4250688339
 20
-82.0711331524
 10
492.1400662438
 20
-83.8339406911
 10
493.9044676761
 20
-85.4590877625
 10
495.7062204799
 20
-86.9354729643
 10
497.5330168564
 20
-88.2530110885
 10
499.3723779343
 20
-89.4027020137
 10
501.2117390121
 20
-90.3766921852
 10
503.0385353887
 20
-91.1683282624
 10
504.8402881924
 20
-91.7722025682
 10
506.6046896247
 20
-92.1841900288
 10
508.3196870347
 20
-92.4014763522
 10
509.9735652511
 20
-92.4225772523
 10
511.5550266086
 20
-92.2473485887
 10
513.0532681227
 20
-91.8769873508
 10
514.4580552845
 20
-91.3140234814
 10
515.7597919733
 20
-90.5623025946
 10
516.9495860076
 20
-89.6269597062
 10
518.0193098878
 20
-88.5143841566
 10
518.9616563149
 20
-87.2321759649
 10
519.7701881075
 20
-85.7890939133
 10
520.4393821734
 20
-84.1949957154
 10
520.9646672388
 20
-82.4607706783
 10
521.3424550739
 20
-80.5982653175
 10
521.5701650047
 20
-78.6202024332
 10
521.6462415417
 20
-76.5400942005
  0
ENDSEC
  0
SECTION
  2
OBJECTS
  0
DICTIONARY
  5
C
330
0
100
AcDbDictionary
281
     1
  3
ACAD_GROUP
350
D
  3
ACAD_LAYOUT
350
1A
  3
ACAD_MLINESTYLE
350
17
  3
ACAD_PLOTSETTINGS
350
19
  3
ACAD_PLOTSTYLENAME
350
E
  3
ACAD_SCALELIST
350
47
  0
DICTIONARY
  5
D
102
{ACAD_REACTORS
330
C
102
}
330
C
100
AcDbDictionary
281
     1
  0
DICTIONARY
  5
1A
102
{ACAD_REACTORS
330
C
102
}
330
C
100
AcDbDictionary
281
     1
  3
Layout1
350
1E
  3
Layout2
350
26
  3
Model
350
22
  0
DICTIONARY
  5
17
102
{ACAD_REACTORS
330
C
102
}
330
C
100
AcDbDictionary
281
     1
  3
Standard
350
18
  0
DICTIONARY
  5
19
102
{ACAD_REACTORS
330
C
102
}
330
C
100
AcDbDictionary
281
     1
  0
ACDBDICTIONARYWDFLT
  5
E
102
{ACAD_REACTORS
330
C
102
}
330
C
100
AcDbDictionary
281
     1
  3
Normal
350
F
100
AcDbDictionaryWithDefault
340
F
  0
DICTIONARY
  5
47
102
{ACAD_REACTORS
330
C
102
}
330
C
100
AcDbDictionary
281
     1
  3
A0
350
48
  3
A1
350
49
  3
A2
350
4A
  3
A3
350
4B
  3
A4
350
4C
  3
A5
350
4D
  3
A6
350
4E
  3
A7
350
4F
  3
A8
350
50
  3
A9
350
51
  3
B0
350
52
  3
B1
350
53
  3
B2
350
54
  3
B3
350
55
  3
B4
350
56
  3
B5
350
57
  3
B6
350
58
  3
B7
350
59
  3
B8
350
5A
  3
B9
350
5B
  3
C0
350
5C
  3
C1
350
5D
  3
C2
350
5E
  3
C3
350
5F
  3
C4
350
60
  3
C5
350
61
  3
C6
350
62
  3
C7
350
63
  3
C8
350
64
  3
C9
350
65
  3
D0
350
66
  3
D1
350
67
  3
D2
350
68
  0
LAYOUT
  5
1E
102
{ACAD_REACTORS
330
1A
102
}
330
1A
100
AcDbPlotSettings
  1

  2
none_device
  4

  6

 40
0.0
 41
0.0
 42
0.0
 43
0.0
 44
0.0
 45
0.0
 46
0.0
 47
0.0
 48
0.0
 49
0.0
140
0.0
141
0.0
142
1.0
143
1.0
 70
   688
 72
     1
 73
     0
 74
     5
  7

 75
    16
147
1.0
148
0.0
149
0.0
100
AcDbLayout
  1
Layout1
 70
     1
 71
     1
 10
0.0
 20
0.0
 11
420.0
 21
297.0
 12
0.0
 22
0.0
 32
0.0
 14
1.0000000000E+20
 24
1.0000000000E+20
 34
1.0000000000E+20
 15
-1.0000000000E+20
 25
-1.0000000000E+20
 35
-1.0000000000E+20
146
0.0
 13
0.0
 23
0.0
 33
0.0
 16
1.0
 26
0.0
 36
0.0
 17
0.0
 27
1.0
 37
0.0
 76
     0
330
1B
  0
LAYOUT
  5
26
102
{ACAD_REACTORS
330
1A
102
}
330
1A
100
AcDbPlotSettings
  1

  2
none_device
  4

  6

 40
0.0
 41
0.0
 42
0.0
 43
0.0
 44
0.0
 45
0.0
 46
0.0
 47
0.0
 48
0.0
 49
0.0
140
0.0
141
0.0
142
1.0
143
1.0
 70
   688
 72
     1
 73
     0
 74
     5
  7

 75
    16
147
1.0
148
0.0
149
0.0
100
AcDbLayout
  1
Layout2
 70
     1
 71
     2
 10
0.0
 20
0.0
 11
0.0
 21
0.0
 12
0.0
 22
0.0
 32
0.0
 14
0.0
 24
0.0
 34
0.0
 15
0.0
 25
0.0
 35
0.0
146
0.0
 13
0.0
 23
0.0
 33
0.0
 16
1.0
 26
0.0
 36
0.0
 17
0.0
 27
1.0
 37
0.0
 76
     0
330
23
  0
LAYOUT
  5
22
102
{ACAD_REACTORS
330
1A
102
}
330
1A
100
AcDbPlotSettings
  1

  2
none_device
  4
Letter_(8.50_x_11.00_Inches)
  6

 40
6.35
 41
6.35
 42
6.35000508
 43
6.35000508
 44
215.9
 45
279.4
 46
0.0
 47
0.0
 48
0.0
 49
0.0
140
0.0
141
0.0
142
1.0
143
1.0
 70
  1712
 72
     1
 73
     0
 74
     0
  7

 75
     0
147
1.0
148
0.0
149
0.0
100
AcDbLayout
  1
Model
 70
     1
 71
     0
 10
0.0
 20
0.0
 11
279.4
 21
215.9
 12
0.0
 22
0.0
 32
0.0
 14
0.0
 24
0.0
 34
0.0
 15
279.4
 25
215.9
 35
0.0
146
0.0
 13
0.0
 23
0.0
 33
0.0
 16
1.0
 26
0.0
 36
0.0
 17
0.0
 27
1.0
 37
0.0
 76
     0
330
1F
331
29
  0
MLINESTYLE
  5
18
102
{ACAD_REACTORS
330
17
102
}
330
17
100
AcDbMlineStyle
  2
Standard
 70
     0
  3

 62
   256
 51
90.0
 52
90.0
 71
     2
 49
0.5
 62
   256
  6
BYLAYER
 49
-0.5
 62
   256
  6
BYLAYER
  0
ACDBPLACEHOLDER
  5
F
102
{ACAD_REACTORS
330
E
102
}
330
E
  0
SCALE
  5
48
102
{ACAD_REACTORS
330
47
102
}
330
47
100
AcDbScale
 70
     0
300
1:1
140
1.0
141
1.0
290
     1
  0
SCALE
  5
49
102
{ACAD_REACTORS
330
47
102
}
330
47
100
AcDbScale
 70
     0
300
1:2
140
1.0
141
2.0
290
     0
  0
SCALE
  5
4A
102
{ACAD_REACTORS
330
47
102
}
330
47
100
AcDbScale
 70
     0
300
1:4
140
1.0
141
4.0
290
     0
  0
SCALE
  5
4B
102
{ACAD_REACTORS
330
47
102
}
330
47
100
AcDbScale
 70
     0
300
1:5
140
1.0
141
5.0
290
     0
  0
SCALE
  5
4C
102
{ACAD_REACTORS
330
47
102
}
330
47
100
AcDbScale
 70
     0
300
1:8
140
1.0
141
8.0
290
     0
  0
SCALE
  5
4D
102
{ACAD_REACTORS
330
47
102
}
330
47
100
AcDbScale
 70
     0
300
1:10
140
1.0
141
10.0
290
     0
  0
SCALE
  5
4E
102
{ACAD_REACTORS
330
47
102
}
330
47
100
AcDbScale
 70
     0
300
1:16
140
1.0
141
16.0
290
     0
  0
SCALE
  5
4F
102
{ACAD_REACTORS
330
47
102
}
330
47
100
AcDbScale
 70
     0
300
1:20
140
1.0
141
20.0
290
     0
  0
SCALE
  5
50
102
{ACAD_REACTORS
330
47
102
}
330
47
100
AcDbScale
 70
     0
300
1:30
140
1.0
141
30.0
290
     0
  0
SCALE
  5
51
102
{ACAD_REACTORS
330
47
102
}
330
47
100
AcDbScale
 70
     0
300
1:40
140
1.0
141
40.0
290
     0
  0
SCALE
  5
52
102
{ACAD_REACTORS
330
47
102
}
330
47
100
AcDbScale
 70
     0
300
1:50
140
1.0
141
50.0
290
     0
  0
SCALE
  5
53
102
{ACAD_REACTORS
330
47
102
}
330
47
100
AcDbScale
 70
     0
300
1:100
140
1.0
141
100.0
290
     0
  0
SCALE
  5
54
102
{ACAD_REACTORS
330
47
102
}
330
47
100
AcDbScale
 70
     0
300
2:1
140
2.0
141
1.0
290
     0
  0
SCALE
  5
55
102
{ACAD_REACTORS
330
47
102
}
330
47
100
AcDbScale
 70
     0
300
4:1
140
4.0
141
1.0
290
     0
  0
SCALE
  5
56
102
{ACAD_REACTORS
330
47
102
}
330
47
100
AcDbScale
 70
     0
300
8:1
140
8.0
141
1.0
290
     0
  0
SCALE
  5
57
102
{ACAD_REACTORS
330
47
102
}
330
47
100
AcDbScale
 70
     0
300
10:1
140
10.0
141
1.0
290
     0
  0
SCALE
  5
58
102
{ACAD_REACTORS
330
47
102
}
330
47
100
AcDbScale
 70
     0
300
100:1
140
100.0
141
1.0
290
     0
  0
SCALE
  5
59
102
{ACAD_REACTORS
330
47
102
}
330
47
100
AcDbScale
 70
     0
300
1/128" = 1'-0"
140
0.0078125
141
12.0
290
     0
  0
SCALE
  5
5A
102
{ACAD_REACTORS
330
47
102
}
330
47
100
AcDbScale
 70
     0
300
1/64" = 1'-0"
140
0.015625
141
12.0
290
     0
  0
SCALE
  5
5B
102
{ACAD_REACTORS
330
47
102
}
330
47
100
AcDbScale
 70
     0
300
1/32" = 1'-0"
140
0.03125
141
12.0
290
     0
  0
SCALE
  5
5C
102
{ACAD_REACTORS
330
47
102
}
330
47
100
AcDbScale
 70
     0
300
1/16" = 1'-0"
140
0.0625
141
12.0
290
     0
  0
SCALE
  5
5D
102
{ACAD_REACTORS
330
47
102
}
330
47
100
AcDbScale
 70
     0
300
3/32" = 1'-0"
140
0.09375
141
12.0
290
     0
  0
SCALE
  5
5E
102
{ACAD_REACTORS
330
47
102
}
330
47
100
AcDbScale
 70
     0
300
1/8" = 1'-0"
140
0.125
141
12.0
290
     0
  0
SCALE
  5
5F
102
{ACAD_REACTORS
330
47
102
}
330
47
100
AcDbScale
 70
     0
300
3/16" = 1'-0"
140
0.1875
141
12.0
290
     0
  0
SCALE
  5
60
102
{ACAD_REACTORS
330
47
102
}
330
47
100
AcDbScale
 70
     0
300
1/4" = 1'-0"
140
0.25
141
12.0
290
     0
  0
SCALE
  5
61
102
{ACAD_REACTORS
330
47
102
}
330
47
100
AcDbScale
 70
     0
300
3/8" = 1'-0"
140
0.375
141
12.0
290
     0
  0
SCALE
  5
62
102
{ACAD_REACTORS
330
47
102
}
330
47
100
AcDbScale
 70
     0
300
1/2" = 1'-0"
140
0.5
141
12.0
290
     0
  0
SCALE
  5
63
102
{ACAD_REACTORS
330
47
102
}
330
47
100
AcDbScale
 70
     0
300
3/4" = 1'-0"
140
0.75
141
12.0
290
     0
  0
SCALE
  5
64
102
{ACAD_REACTORS
330
47
102
}
330
47
100
AcDbScale
 70
     0
300
1" = 1'-0"
140
1.0
141
12.0
290
     0
  0
SCALE
  5
65
102
{ACAD_REACTORS
330
47
102
}
330
47
100
AcDbScale
 70
     0
300
1-1/2" = 1'-0"
140
1.5
141
12.0
290
     0
  0
SCALE
  5
66
102
{ACAD_REACTORS
330
47
102
}
330
47
100
AcDbScale
 70
     0
300
3" = 1'-0"
140
3.0
141
12.0
290
     0
  0
SCALE
  5
67
102
{ACAD_REACTORS
330
47
102
}
330
47
100
AcDbScale
 70
     0
300
6" = 1'-0"
140
6.0
141
12.0
290
     0
  0
SCALE
  5
68
102
{ACAD_REACTORS
330
47
102
}
330
47
100
AcDbScale
 70
     0
300
1'-0" = 1'-0"
140
12.0
141
12.0
290
     0
  0
ENDSEC
  0
EOF
